ISO-10303-21;
HEADER;
FILE_DESCRIPTION (( 'STEP AP203' ),
    '1' );
FILE_NAME ('QB-CTZHWP-12.7-1310-M.STEP',
    '2020-12-24T01:34:41',
    ( '' ),
    ( '' ),
    'SwSTEP 2.0',
    'SolidWorks 2020',
    '' );
FILE_SCHEMA (( 'CONFIG_CONTROL_DESIGN' ));
ENDSEC;

DATA;
#1 = APPROVAL_PERSON_ORGANIZATION ( #257, #253, #200 ) ;
#2 = ORIENTED_EDGE ( 'NONE', *, *, #66, .F. ) ;
#3 = PERSON_AND_ORGANIZATION ( #80, #144 ) ;
#4 = DIRECTION ( 'NONE',  ( 1.000000000000000000, 0.000000000000000000, 0.000000000000000000 ) ) ;
#5 = EDGE_CURVE ( 'NONE', #225, #326, #215, .T. ) ;
#6 = AXIS2_PLACEMENT_3D ( 'NONE', #13, #270, #136 ) ;
#7 = ORIENTED_EDGE ( 'NONE', *, *, #262, .T. ) ;
#8 = DIRECTION ( 'NONE',  ( 1.000000000000000000, 0.000000000000000000, 0.000000000000000000 ) ) ;
#9 = VERTEX_POINT ( 'NONE', #41 ) ;
#10 = CARTESIAN_POINT ( 'NONE',  ( -2.999999999999999556, 7.776507174585692163E-16, -6.349999999999999645 ) ) ;
#11 = LOCAL_TIME ( 9, 34, 41.00000000000000000, #133 ) ;
#12 = ADVANCED_FACE ( 'NONE', ( #297 ), #98, .F. ) ;
#13 = CARTESIAN_POINT ( 'NONE',  ( 3.000000000000000000, 0.000000000000000000, 0.000000000000000000 ) ) ;
#14 = DIRECTION ( 'NONE',  ( -1.000000000000000000, -0.000000000000000000, -0.000000000000000000 ) ) ;
#15 = FACE_OUTER_BOUND ( 'NONE', #237, .T. ) ;
#16 = DIRECTION ( 'NONE',  ( -1.000000000000000000, -0.000000000000000000, -0.000000000000000000 ) ) ;
#17 = CARTESIAN_POINT ( 'NONE',  ( -3.000000000000000000, 0.000000000000000000, 0.000000000000000000 ) ) ;
#18 = CC_DESIGN_PERSON_AND_ORGANIZATION_ASSIGNMENT ( #21, #73, ( #239 ) ) ;
#19 = DIRECTION ( 'NONE',  ( -1.000000000000000000, -0.000000000000000000, -0.000000000000000000 ) ) ;
#20 = ORIENTED_EDGE ( 'NONE', *, *, #280, .F. ) ;
#21 = PERSON_AND_ORGANIZATION ( #80, #144 ) ;
#22 = PERSON_AND_ORGANIZATION_ROLE ( 'creator' ) ;
#23 = APPROVAL_ROLE ( '' ) ;
#24 = DIRECTION ( 'NONE',  ( -1.000000000000000000, -0.000000000000000000, -0.000000000000000000 ) ) ;
#25 = ORIENTED_EDGE ( 'NONE', *, *, #44, .T. ) ;
#26 = LINE ( 'NONE', #259, #288 ) ;
#27 = ORIENTED_EDGE ( 'NONE', *, *, #75, .T. ) ;
#28 = PERSON_AND_ORGANIZATION ( #80, #144 ) ;
#29 = EDGE_CURVE ( 'NONE', #83, #294, #139, .T. ) ;
#30 = CYLINDRICAL_SURFACE ( 'NONE', #64, 6.349999999999999645 ) ;
#31 = VECTOR ( 'NONE', #319, 1000.000000000000000 ) ;
#32 = VERTEX_POINT ( 'NONE', #96 ) ;
#33 = CARTESIAN_POINT ( 'NONE',  ( -1.614212418857619014, 0.000000000000000000, 0.000000000000000000 ) ) ;
#34 = ORIENTED_EDGE ( 'NONE', *, *, #228, .T. ) ;
#35 = LINE ( 'NONE', #218, #328 ) ;
#36 = CARTESIAN_POINT ( 'NONE',  ( -1.614212418857619014, 0.000000000000000000, 6.349999999999999645 ) ) ;
#37 = CARTESIAN_POINT ( 'NONE',  ( -1.614212418857619014, 0.000000000000000000, 0.000000000000000000 ) ) ;
#38 = ORIENTED_EDGE ( 'NONE', *, *, #296, .T. ) ;
#39 = CIRCLE ( 'NONE', #274, 6.349999999999999645 ) ;
#40 = DIRECTION ( 'NONE',  ( 0.000000000000000000, 0.000000000000000000, 1.000000000000000000 ) ) ;
#41 = CARTESIAN_POINT ( 'NONE',  ( 1.500000000000000888, 7.776507174585692163E-16, -6.349999999999999645 ) ) ;
#42 = AXIS2_PLACEMENT_3D ( 'NONE', #49, #79, #238 ) ;
#43 = SECURITY_CLASSIFICATION ( '', '', #51 ) ;
#44 = EDGE_CURVE ( 'NONE', #32, #137, #39, .T. ) ;
#45 = DIRECTION ( 'NONE',  ( -0.000000000000000000, 0.000000000000000000, 1.000000000000000000 ) ) ;
#46 = APPROVAL_STATUS ( 'not_yet_approved' ) ;
#47 = PERSON_AND_ORGANIZATION_ROLE ( 'creator' ) ;
#48 = DIRECTION ( 'NONE',  ( 0.000000000000000000, 0.000000000000000000, 1.000000000000000000 ) ) ;
#49 = CARTESIAN_POINT ( 'NONE',  ( 1.500000000000000888, 0.000000000000000000, 0.000000000000000000 ) ) ;
#50 = ORIENTED_EDGE ( 'NONE', *, *, #75, .F. ) ;
#51 = SECURITY_CLASSIFICATION_LEVEL ( 'unclassified' ) ;
#52 = DIRECTION ( 'NONE',  ( 0.000000000000000000, 0.000000000000000000, -1.000000000000000000 ) ) ;
#53 = AXIS2_PLACEMENT_3D ( 'NONE', #65, #276, #244 ) ;
#54 = CC_DESIGN_APPROVAL ( #135, ( #116 ) ) ;
#55 = ORIENTED_EDGE ( 'NONE', *, *, #305, .F. ) ;
#56 = VERTEX_POINT ( 'NONE', #168 ) ;
#57 = APPLICATION_CONTEXT ( 'configuration controlled 3d designs of mechanical parts and assemblies' ) ;
#58 = CYLINDRICAL_SURFACE ( 'NONE', #174, 6.349999999999999645 ) ;
#59 = PRODUCT_DEFINITION_SHAPE ( 'NONE', 'NONE',  #327 ) ;
#60 = ORIENTED_EDGE ( 'NONE', *, *, #305, .T. ) ;
#61 = ADVANCED_BREP_SHAPE_REPRESENTATION ( 'QB-CTZHWP-12.7-1310-M', ( #143, #298 ), #129 ) ;
#62 = CARTESIAN_POINT ( 'NONE',  ( -1.614212418857619014, 7.776507174585692163E-16, -6.349999999999999645 ) ) ;
#63 = PERSON_AND_ORGANIZATION ( #80, #144 ) ;
#64 = AXIS2_PLACEMENT_3D ( 'NONE', #147, #209, #287 ) ;
#65 = CARTESIAN_POINT ( 'NONE',  ( 3.000000000000000888, 0.000000000000000000, 0.000000000000000000 ) ) ;
#66 = EDGE_CURVE ( 'NONE', #109, #32, #272, .T. ) ;
#67 = EDGE_LOOP ( 'NONE', ( #50, #38, #312, #241 ) ) ;
#68 = DIRECTION ( 'NONE',  ( 0.000000000000000000, 0.000000000000000000, 1.000000000000000000 ) ) ;
#69 = EDGE_LOOP ( 'NONE', ( #224, #151 ) ) ;
#70 = AXIS2_PLACEMENT_3D ( 'NONE', #107, #4, #284 ) ;
#71 = PRODUCT_RELATED_PRODUCT_CATEGORY ( 'detail', '', ( #239 ) ) ;
#72 = DIRECTION ( 'NONE',  ( 1.000000000000000000, 0.000000000000000000, 0.000000000000000000 ) ) ;
#73 = PERSON_AND_ORGANIZATION_ROLE ( 'design_owner' ) ;
#74 = CC_DESIGN_APPROVAL ( #253, ( #327 ) ) ;
#75 = EDGE_CURVE ( 'NONE', #117, #294, #169, .T. ) ;
#76 = CIRCLE ( 'NONE', #121, 12.69999999999999929 ) ;
#77 = DATE_AND_TIME ( #308, #235 ) ;
#78 =( NAMED_UNIT ( * ) SI_UNIT ( $, .STERADIAN. ) SOLID_ANGLE_UNIT ( ) );
#79 = DIRECTION ( 'NONE',  ( -1.000000000000000000, -0.000000000000000000, -0.000000000000000000 ) ) ;
#80 = PERSON ( 'UNSPECIFIED', 'UNSPECIFIED', 'UNSPECIFIED', ('UNSPECIFIED'), ('UNSPECIFIED'), ('UNSPECIFIED') ) ;
#81 = ORIENTED_EDGE ( 'NONE', *, *, #5, .T. ) ;
#82 = DIRECTION ( 'NONE',  ( 0.000000000000000000, 0.000000000000000000, 1.000000000000000000 ) ) ;
#83 = VERTEX_POINT ( 'NONE', #267 ) ;
#84 = DIRECTION ( 'NONE',  ( 1.000000000000000000, 0.000000000000000000, 0.000000000000000000 ) ) ;
#85 = CLOSED_SHELL ( 'NONE', ( #155, #256, #12, #324, #94, #87, #246, #160, #226, #309 ) ) ;
#86 = APPROVAL_PERSON_ORGANIZATION ( #204, #135, #23 ) ;
#87 = ADVANCED_FACE ( 'NONE', ( #97 ), #58, .F. ) ;
#88 = CARTESIAN_POINT ( 'NONE',  ( -1.500000000000000444, 0.000000000000000000, 6.349999999999999645 ) ) ;
#89 = CIRCLE ( 'NONE', #125, 6.349999999999999645 ) ;
#90 = ORIENTED_EDGE ( 'NONE', *, *, #286, .F. ) ;
#91 = DIRECTION ( 'NONE',  ( -1.000000000000000000, -0.000000000000000000, -0.000000000000000000 ) ) ;
#92 = ORIENTED_EDGE ( 'NONE', *, *, #5, .F. ) ;
#93 = CYLINDRICAL_SURFACE ( 'NONE', #304, 12.69999999999999929 ) ;
#94 = ADVANCED_FACE ( 'NONE', ( #161 ), #316, .F. ) ;
#95 = DIRECTION ( 'NONE',  ( 0.000000000000000000, 0.000000000000000000, 1.000000000000000000 ) ) ;
#96 = CARTESIAN_POINT ( 'NONE',  ( -2.999999999999999556, 0.000000000000000000, 6.349999999999999645 ) ) ;
#97 = FACE_OUTER_BOUND ( 'NONE', #154, .T. ) ;
#98 = CYLINDRICAL_SURFACE ( 'NONE', #289, 6.349999999999999645 ) ;
#99 = UNCERTAINTY_MEASURE_WITH_UNIT (LENGTH_MEASURE( 1.000000000000000082E-05 ), #260, 'distance_accuracy_value', 'NONE');
#100 = APPLICATION_PROTOCOL_DEFINITION ( 'international standard', 'config_control_design', 1994, #57 ) ;
#101 = AXIS2_PLACEMENT_3D ( 'NONE', #159, #295, #221 ) ;
#102 = DATE_TIME_ROLE ( 'creation_date' ) ;
#103 = FACE_BOUND ( 'NONE', #323, .T. ) ;
#104 = CARTESIAN_POINT ( 'NONE',  ( 3.000000000000000888, 0.000000000000000000, 0.000000000000000000 ) ) ;
#105 = ORIENTED_EDGE ( 'NONE', *, *, #131, .F. ) ;
#106 =( NAMED_UNIT ( * ) PLANE_ANGLE_UNIT ( ) SI_UNIT ( $, .RADIAN. ) );
#107 = CARTESIAN_POINT ( 'NONE',  ( -3.000000000000000000, 6.349999999999999645, 0.000000000000000000 ) ) ;
#108 = CC_DESIGN_PERSON_AND_ORGANIZATION_ASSIGNMENT ( #28, #299, ( #43 ) ) ;
#109 = VERTEX_POINT ( 'NONE', #88 ) ;
#110 = CIRCLE ( 'NONE', #306, 6.349999999999999645 ) ;
#111 = DIRECTION ( 'NONE',  ( -1.000000000000000000, -0.000000000000000000, -0.000000000000000000 ) ) ;
#112 = CARTESIAN_POINT ( 'NONE',  ( 3.000000000000000888, 0.000000000000000000, 6.349999999999999645 ) ) ;
#113 = CALENDAR_DATE ( 2020, 24, 12 ) ;
#114 = ORIENTED_EDGE ( 'NONE', *, *, #148, .T. ) ;
#115 = CARTESIAN_POINT ( 'NONE',  ( 1.500000000000000888, 0.000000000000000000, 0.000000000000000000 ) ) ;
#116 = PRODUCT_DEFINITION_FORMATION_WITH_SPECIFIED_SOURCE ( 'ANY', '', #239, .NOT_KNOWN. ) ;
#117 = VERTEX_POINT ( 'NONE', #325 ) ;
#118 = FACE_OUTER_BOUND ( 'NONE', #67, .T. ) ;
#119 = CARTESIAN_POINT ( 'NONE',  ( -1.614212418857619014, 1.555301434917138433E-15, -12.69999999999999929 ) ) ;
#120 = DIRECTION ( 'NONE',  ( 0.000000000000000000, 0.000000000000000000, 1.000000000000000000 ) ) ;
#121 = AXIS2_PLACEMENT_3D ( 'NONE', #17, #216, #293 ) ;
#122 = EDGE_CURVE ( 'NONE', #56, #83, #35, .T. ) ;
#123 = VECTOR ( 'NONE', #16, 1000.000000000000000 ) ;
#124 = COORDINATED_UNIVERSAL_TIME_OFFSET ( 8, 0, .AHEAD. ) ;
#125 = AXIS2_PLACEMENT_3D ( 'NONE', #264, #91, #277 ) ;
#126 = APPROVAL ( #320, 'UNSPECIFIED' ) ;
#127 = DIRECTION ( 'NONE',  ( -1.000000000000000000, -0.000000000000000000, -0.000000000000000000 ) ) ;
#128 = AXIS2_PLACEMENT_3D ( 'NONE', #181, #258, #45 ) ;
#129 =( GEOMETRIC_REPRESENTATION_CONTEXT ( 3 ) GLOBAL_UNCERTAINTY_ASSIGNED_CONTEXT ( ( #99 ) ) GLOBAL_UNIT_ASSIGNED_CONTEXT ( ( #260, #106, #78 ) ) REPRESENTATION_CONTEXT ( 'NONE', 'WORKASPACE' ) );
#130 = ORIENTED_EDGE ( 'NONE', *, *, #175, .F. ) ;
#131 = EDGE_CURVE ( 'NONE', #300, #137, #245, .T. ) ;
#132 = DIRECTION ( 'NONE',  ( -1.000000000000000000, -0.000000000000000000, -0.000000000000000000 ) ) ;
#133 = COORDINATED_UNIVERSAL_TIME_OFFSET ( 8, 0, .AHEAD. ) ;
#134 = ORIENTED_EDGE ( 'NONE', *, *, #131, .T. ) ;
#135 = APPROVAL ( #46, 'UNSPECIFIED' ) ;
#136 = DIRECTION ( 'NONE',  ( 0.000000000000000000, 0.000000000000000000, 1.000000000000000000 ) ) ;
#137 = VERTEX_POINT ( 'NONE', #10 ) ;
#138 = DIRECTION ( 'NONE',  ( -1.000000000000000000, -0.000000000000000000, -0.000000000000000000 ) ) ;
#139 = CIRCLE ( 'NONE', #229, 12.69999999999999929 ) ;
#140 = ORIENTED_EDGE ( 'NONE', *, *, #29, .T. ) ;
#141 = DIRECTION ( 'NONE',  ( 0.000000000000000000, 0.000000000000000000, 1.000000000000000000 ) ) ;
#142 = DIRECTION ( 'NONE',  ( -1.000000000000000000, -0.000000000000000000, -0.000000000000000000 ) ) ;
#143 = MANIFOLD_SOLID_BREP ( 'Ðý×', #85 ) ;
#144 = ORGANIZATION ( 'UNSPECIFIED', 'UNSPECIFIED', '' ) ;
#145 = CIRCLE ( 'NONE', #189, 6.349999999999999645 ) ;
#146 = APPROVAL_PERSON_ORGANIZATION ( #63, #126, #271 ) ;
#147 = CARTESIAN_POINT ( 'NONE',  ( -1.614212418857619014, 0.000000000000000000, 0.000000000000000000 ) ) ;
#148 = EDGE_CURVE ( 'NONE', #294, #83, #76, .T. ) ;
#149 = AXIS2_PLACEMENT_3D ( 'NONE', #227, #72, #278 ) ;
#150 = FACE_OUTER_BOUND ( 'NONE', #196, .T. ) ;
#151 = ORIENTED_EDGE ( 'NONE', *, *, #296, .F. ) ;
#152 = CARTESIAN_POINT ( 'NONE',  ( 3.000000000000000888, 7.776507174585692163E-16, -6.349999999999999645 ) ) ;
#153 = AXIS2_PLACEMENT_3D ( 'NONE', #311, #84, #52 ) ;
#154 = EDGE_LOOP ( 'NONE', ( #105, #212, #214, #25 ) ) ;
#155 = ADVANCED_FACE ( 'NONE', ( #15 ), #192, .T. ) ;
#156 = DESIGN_CONTEXT ( 'detailed design', #254, 'design' ) ;
#157 = ORIENTED_EDGE ( 'NONE', *, *, #280, .T. ) ;
#158 = ORIENTED_EDGE ( 'NONE', *, *, #175, .T. ) ;
#159 = CARTESIAN_POINT ( 'NONE',  ( 3.000000000000000000, 12.69999999999999929, 0.000000000000000000 ) ) ;
#160 = ADVANCED_FACE ( 'NONE', ( #118 ), #93, .T. ) ;
#161 = FACE_OUTER_BOUND ( 'NONE', #269, .T. ) ;
#162 = COORDINATED_UNIVERSAL_TIME_OFFSET ( 8, 0, .AHEAD. ) ;
#163 = CC_DESIGN_PERSON_AND_ORGANIZATION_ASSIGNMENT ( #3, #22, ( #327 ) ) ;
#164 = VERTEX_POINT ( 'NONE', #165 ) ;
#165 = CARTESIAN_POINT ( 'NONE',  ( 1.500000000000000888, 0.000000000000000000, 6.349999999999999645 ) ) ;
#166 = DATE_AND_TIME ( #113, #11 ) ;
#167 = CIRCLE ( 'NONE', #6, 12.69999999999999929 ) ;
#168 = CARTESIAN_POINT ( 'NONE',  ( 3.000000000000000000, 0.000000000000000000, 12.69999999999999929 ) ) ;
#169 = LINE ( 'NONE', #119, #315 ) ;
#170 = FACE_OUTER_BOUND ( 'NONE', #69, .T. ) ;
#171 = CC_DESIGN_PERSON_AND_ORGANIZATION_ASSIGNMENT ( #184, #283, ( #116 ) ) ;
#172 = LOCAL_TIME ( 9, 34, 41.00000000000000000, #162 ) ;
#173 = ORIENTED_EDGE ( 'NONE', *, *, #122, .F. ) ;
#174 = AXIS2_PLACEMENT_3D ( 'NONE', #37, #138, #249 ) ;
#175 = EDGE_CURVE ( 'NONE', #9, #164, #202, .T. ) ;
#176 = APPROVAL_STATUS ( 'not_yet_approved' ) ;
#177 = CARTESIAN_POINT ( 'NONE',  ( -1.614212418857619014, 7.776507174585692163E-16, -6.349999999999999645 ) ) ;
#178 = FACE_OUTER_BOUND ( 'NONE', #198, .T. ) ;
#179 = CIRCLE ( 'NONE', #193, 12.69999999999999929 ) ;
#180 = AXIS2_PLACEMENT_3D ( 'NONE', #115, #194, #68 ) ;
#181 = CARTESIAN_POINT ( 'NONE',  ( 1.500000000000000444, 6.349999999999999645, 0.000000000000000000 ) ) ;
#182 = EDGE_CURVE ( 'NONE', #56, #117, #167, .T. ) ;
#183 = EDGE_LOOP ( 'NONE', ( #314, #157, #158, #301 ) ) ;
#184 = PERSON_AND_ORGANIZATION ( #80, #144 ) ;
#185 = CARTESIAN_POINT ( 'NONE',  ( 3.000000000000000000, 0.000000000000000000, 0.000000000000000000 ) ) ;
#186 = ORIENTED_EDGE ( 'NONE', *, *, #330, .T. ) ;
#187 = CARTESIAN_POINT ( 'NONE',  ( -1.500000000000000444, 0.000000000000000000, 0.000000000000000000 ) ) ;
#188 = EDGE_LOOP ( 'NONE', ( #81, #7 ) ) ;
#189 = AXIS2_PLACEMENT_3D ( 'NONE', #104, #279, #82 ) ;
#190 = PLANE ( 'NONE',  #101 ) ;
#191 = AXIS2_PLACEMENT_3D ( 'NONE', #322, #14, #40 ) ;
#192 = CYLINDRICAL_SURFACE ( 'NONE', #191, 12.69999999999999929 ) ;
#193 = AXIS2_PLACEMENT_3D ( 'NONE', #185, #127, #48 ) ;
#194 = DIRECTION ( 'NONE',  ( -1.000000000000000000, -0.000000000000000000, -0.000000000000000000 ) ) ;
#195 = CARTESIAN_POINT ( 'NONE',  ( -1.614212418857619014, 0.000000000000000000, 0.000000000000000000 ) ) ;
#196 = EDGE_LOOP ( 'NONE', ( #55, #251 ) ) ;
#197 = DIRECTION ( 'NONE',  ( -1.000000000000000000, -0.000000000000000000, -0.000000000000000000 ) ) ;
#198 = EDGE_LOOP ( 'NONE', ( #60, #134, #34, #2 ) ) ;
#199 = CARTESIAN_POINT ( 'NONE',  ( 0.000000000000000000, 0.000000000000000000, 0.000000000000000000 ) ) ;
#200 = APPROVAL_ROLE ( '' ) ;
#201 = VECTOR ( 'NONE', #24, 1000.000000000000000 ) ;
#202 = CIRCLE ( 'NONE', #180, 6.349999999999999645 ) ;
#203 = DIRECTION ( 'NONE',  ( 0.000000000000000000, 0.000000000000000000, 1.000000000000000000 ) ) ;
#204 = PERSON_AND_ORGANIZATION ( #80, #144 ) ;
#205 = PERSON_AND_ORGANIZATION ( #80, #144 ) ;
#206 = LINE ( 'NONE', #177, #201 ) ;
#207 = CALENDAR_DATE ( 2020, 24, 12 ) ;
#208 = APPROVAL_DATE_TIME ( #292, #135 ) ;
#209 = DIRECTION ( 'NONE',  ( -1.000000000000000000, -0.000000000000000000, -0.000000000000000000 ) ) ;
#210 = AXIS2_PLACEMENT_3D ( 'NONE', #33, #240, #242 ) ;
#211 = FACE_OUTER_BOUND ( 'NONE', #317, .T. ) ;
#212 = ORIENTED_EDGE ( 'NONE', *, *, #236, .T. ) ;
#213 = PLANE ( 'NONE',  #128 ) ;
#214 = ORIENTED_EDGE ( 'NONE', *, *, #66, .T. ) ;
#215 = CIRCLE ( 'NONE', #53, 6.349999999999999645 ) ;
#216 = DIRECTION ( 'NONE',  ( -1.000000000000000000, -0.000000000000000000, -0.000000000000000000 ) ) ;
#217 = APPROVAL_DATE_TIME ( #166, #126 ) ;
#218 = CARTESIAN_POINT ( 'NONE',  ( -1.614212418857619014, 0.000000000000000000, 12.69999999999999929 ) ) ;
#219 = SHAPE_DEFINITION_REPRESENTATION ( #59, #61 ) ;
#220 = DIRECTION ( 'NONE',  ( 0.000000000000000000, 0.000000000000000000, 1.000000000000000000 ) ) ;
#221 = DIRECTION ( 'NONE',  ( -0.000000000000000000, 0.000000000000000000, 1.000000000000000000 ) ) ;
#222 = ORIENTED_EDGE ( 'NONE', *, *, #29, .F. ) ;
#223 = CARTESIAN_POINT ( 'NONE',  ( -1.614212418857619014, 0.000000000000000000, 0.000000000000000000 ) ) ;
#224 = ORIENTED_EDGE ( 'NONE', *, *, #182, .F. ) ;
#225 = VERTEX_POINT ( 'NONE', #112 ) ;
#226 = ADVANCED_FACE ( 'NONE', ( #170, #275 ), #190, .F. ) ;
#227 = CARTESIAN_POINT ( 'NONE',  ( -1.500000000000000444, 0.000000000000000000, 0.000000000000000000 ) ) ;
#228 = EDGE_CURVE ( 'NONE', #137, #32, #89, .T. ) ;
#229 = AXIS2_PLACEMENT_3D ( 'NONE', #302, #142, #120 ) ;
#230 = CC_DESIGN_DATE_AND_TIME_ASSIGNMENT ( #332, #102, ( #327 ) ) ;
#231 = COORDINATED_UNIVERSAL_TIME_OFFSET ( 8, 0, .AHEAD. ) ;
#232 = FACE_OUTER_BOUND ( 'NONE', #285, .T. ) ;
#233 = COORDINATED_UNIVERSAL_TIME_OFFSET ( 8, 0, .AHEAD. ) ;
#234 = PLANE ( 'NONE',  #70 ) ;
#235 = LOCAL_TIME ( 9, 34, 41.00000000000000000, #124 ) ;
#236 = EDGE_CURVE ( 'NONE', #300, #109, #318, .T. ) ;
#237 = EDGE_LOOP ( 'NONE', ( #265, #27, #222, #173 ) ) ;
#238 = DIRECTION ( 'NONE',  ( 0.000000000000000000, 0.000000000000000000, 1.000000000000000000 ) ) ;
#239 = PRODUCT ( 'QB-CTZHWP-12.7-1310-M', 'QB-CTZHWP-12.7-1310-M', '', ( #255 ) ) ;
#240 = DIRECTION ( 'NONE',  ( -1.000000000000000000, -0.000000000000000000, -0.000000000000000000 ) ) ;
#241 = ORIENTED_EDGE ( 'NONE', *, *, #148, .F. ) ;
#242 = DIRECTION ( 'NONE',  ( 0.000000000000000000, 0.000000000000000000, 1.000000000000000000 ) ) ;
#243 = CALENDAR_DATE ( 2020, 24, 12 ) ;
#244 = DIRECTION ( 'NONE',  ( 0.000000000000000000, 0.000000000000000000, 1.000000000000000000 ) ) ;
#245 = LINE ( 'NONE', #62, #31 ) ;
#246 = ADVANCED_FACE ( 'NONE', ( #103, #211 ), #234, .F. ) ;
#247 = DATE_AND_TIME ( #243, #172 ) ;
#248 = DIRECTION ( 'NONE',  ( -1.000000000000000000, -0.000000000000000000, -0.000000000000000000 ) ) ;
#249 = DIRECTION ( 'NONE',  ( 0.000000000000000000, 0.000000000000000000, 1.000000000000000000 ) ) ;
#250 = ORIENTED_EDGE ( 'NONE', *, *, #286, .T. ) ;
#251 = ORIENTED_EDGE ( 'NONE', *, *, #236, .F. ) ;
#252 = CC_DESIGN_SECURITY_CLASSIFICATION ( #43, ( #116 ) ) ;
#253 = APPROVAL ( #176, 'UNSPECIFIED' ) ;
#254 = APPLICATION_CONTEXT ( 'configuration controlled 3d designs of mechanical parts and assemblies' ) ;
#255 = MECHANICAL_CONTEXT ( 'NONE', #57, 'mechanical' ) ;
#256 = ADVANCED_FACE ( 'NONE', ( #178 ), #30, .F. ) ;
#257 = PERSON_AND_ORGANIZATION ( #80, #144 ) ;
#258 = DIRECTION ( 'NONE',  ( -1.000000000000000000, 0.000000000000000000, -0.000000000000000000 ) ) ;
#259 = CARTESIAN_POINT ( 'NONE',  ( -1.614212418857619014, 0.000000000000000000, 6.349999999999999645 ) ) ;
#260 =( LENGTH_UNIT ( ) NAMED_UNIT ( * ) SI_UNIT ( .MILLI., .METRE. ) );
#261 = LOCAL_TIME ( 9, 34, 41.00000000000000000, #231 ) ;
#262 = EDGE_CURVE ( 'NONE', #326, #225, #145, .T. ) ;
#263 = CC_DESIGN_DATE_AND_TIME_ASSIGNMENT ( #247, #268, ( #43 ) ) ;
#264 = CARTESIAN_POINT ( 'NONE',  ( -2.999999999999999556, 0.000000000000000000, 0.000000000000000000 ) ) ;
#265 = ORIENTED_EDGE ( 'NONE', *, *, #182, .T. ) ;
#266 = CC_DESIGN_APPROVAL ( #126, ( #43 ) ) ;
#267 = CARTESIAN_POINT ( 'NONE',  ( -3.000000000000000000, 0.000000000000000000, 12.69999999999999929 ) ) ;
#268 = DATE_TIME_ROLE ( 'classification_date' ) ;
#269 = EDGE_LOOP ( 'NONE', ( #20, #92, #186, #250 ) ) ;
#270 = DIRECTION ( 'NONE',  ( -1.000000000000000000, -0.000000000000000000, -0.000000000000000000 ) ) ;
#271 = APPROVAL_ROLE ( '' ) ;
#272 = LINE ( 'NONE', #36, #123 ) ;
#273 = ORIENTED_EDGE ( 'NONE', *, *, #44, .F. ) ;
#274 = AXIS2_PLACEMENT_3D ( 'NONE', #321, #248, #95 ) ;
#275 = FACE_BOUND ( 'NONE', #188, .T. ) ;
#276 = DIRECTION ( 'NONE',  ( -1.000000000000000000, -0.000000000000000000, -0.000000000000000000 ) ) ;
#277 = DIRECTION ( 'NONE',  ( 0.000000000000000000, 0.000000000000000000, 1.000000000000000000 ) ) ;
#278 = DIRECTION ( 'NONE',  ( 0.000000000000000000, 0.000000000000000000, -1.000000000000000000 ) ) ;
#279 = DIRECTION ( 'NONE',  ( -1.000000000000000000, -0.000000000000000000, -0.000000000000000000 ) ) ;
#280 = EDGE_CURVE ( 'NONE', #326, #9, #206, .T. ) ;
#281 = APPROVAL_DATE_TIME ( #77, #253 ) ;
#282 = CARTESIAN_POINT ( 'NONE',  ( -3.000000000000000000, 1.555301434917138433E-15, -12.69999999999999929 ) ) ;
#283 = PERSON_AND_ORGANIZATION_ROLE ( 'design_supplier' ) ;
#284 = DIRECTION ( 'NONE',  ( 0.000000000000000000, 0.000000000000000000, -1.000000000000000000 ) ) ;
#285 = EDGE_LOOP ( 'NONE', ( #90, #130 ) ) ;
#286 = EDGE_CURVE ( 'NONE', #164, #9, #290, .T. ) ;
#287 = DIRECTION ( 'NONE',  ( 0.000000000000000000, 0.000000000000000000, 1.000000000000000000 ) ) ;
#288 = VECTOR ( 'NONE', #335, 1000.000000000000000 ) ;
#289 = AXIS2_PLACEMENT_3D ( 'NONE', #195, #19, #220 ) ;
#290 = CIRCLE ( 'NONE', #42, 6.349999999999999645 ) ;
#291 = ORIENTED_EDGE ( 'NONE', *, *, #228, .F. ) ;
#292 = DATE_AND_TIME ( #334, #307 ) ;
#293 = DIRECTION ( 'NONE',  ( 0.000000000000000000, 0.000000000000000000, 1.000000000000000000 ) ) ;
#294 = VERTEX_POINT ( 'NONE', #282 ) ;
#295 = DIRECTION ( 'NONE',  ( -1.000000000000000000, 0.000000000000000000, -0.000000000000000000 ) ) ;
#296 = EDGE_CURVE ( 'NONE', #117, #56, #179, .T. ) ;
#297 = FACE_OUTER_BOUND ( 'NONE', #183, .T. ) ;
#298 = AXIS2_PLACEMENT_3D ( 'NONE', #199, #203, #331 ) ;
#299 = PERSON_AND_ORGANIZATION_ROLE ( 'classification_officer' ) ;
#300 = VERTEX_POINT ( 'NONE', #333 ) ;
#301 = ORIENTED_EDGE ( 'NONE', *, *, #330, .F. ) ;
#302 = CARTESIAN_POINT ( 'NONE',  ( -3.000000000000000000, 0.000000000000000000, 0.000000000000000000 ) ) ;
#303 = CC_DESIGN_PERSON_AND_ORGANIZATION_ASSIGNMENT ( #205, #47, ( #116 ) ) ;
#304 = AXIS2_PLACEMENT_3D ( 'NONE', #223, #197, #141 ) ;
#305 = EDGE_CURVE ( 'NONE', #109, #300, #110, .T. ) ;
#306 = AXIS2_PLACEMENT_3D ( 'NONE', #187, #8, #310 ) ;
#307 = LOCAL_TIME ( 9, 34, 41.00000000000000000, #233 ) ;
#308 = CALENDAR_DATE ( 2020, 24, 12 ) ;
#309 = ADVANCED_FACE ( 'NONE', ( #150 ), #313, .F. ) ;
#310 = DIRECTION ( 'NONE',  ( 0.000000000000000000, 0.000000000000000000, -1.000000000000000000 ) ) ;
#311 = CARTESIAN_POINT ( 'NONE',  ( -1.500000000000000444, 6.349999999999999645, 0.000000000000000000 ) ) ;
#312 = ORIENTED_EDGE ( 'NONE', *, *, #122, .T. ) ;
#313 = PLANE ( 'NONE',  #153 ) ;
#314 = ORIENTED_EDGE ( 'NONE', *, *, #262, .F. ) ;
#315 = VECTOR ( 'NONE', #132, 1000.000000000000000 ) ;
#316 = CYLINDRICAL_SURFACE ( 'NONE', #210, 6.349999999999999645 ) ;
#317 = EDGE_LOOP ( 'NONE', ( #140, #114 ) ) ;
#318 = CIRCLE ( 'NONE', #149, 6.349999999999999645 ) ;
#319 = DIRECTION ( 'NONE',  ( -1.000000000000000000, -0.000000000000000000, -0.000000000000000000 ) ) ;
#320 = APPROVAL_STATUS ( 'not_yet_approved' ) ;
#321 = CARTESIAN_POINT ( 'NONE',  ( -2.999999999999999556, 0.000000000000000000, 0.000000000000000000 ) ) ;
#322 = CARTESIAN_POINT ( 'NONE',  ( -1.614212418857619014, 0.000000000000000000, 0.000000000000000000 ) ) ;
#323 = EDGE_LOOP ( 'NONE', ( #273, #291 ) ) ;
#324 = ADVANCED_FACE ( 'NONE', ( #232 ), #213, .F. ) ;
#325 = CARTESIAN_POINT ( 'NONE',  ( 3.000000000000000000, 1.555301434917138433E-15, -12.69999999999999929 ) ) ;
#326 = VERTEX_POINT ( 'NONE', #152 ) ;
#327 = PRODUCT_DEFINITION ( 'UNKNOWN', '', #116, #156 ) ;
#328 = VECTOR ( 'NONE', #111, 1000.000000000000000 ) ;
#329 = APPLICATION_PROTOCOL_DEFINITION ( 'international standard', 'config_control_design', 1994, #254 ) ;
#330 = EDGE_CURVE ( 'NONE', #225, #164, #26, .T. ) ;
#331 = DIRECTION ( 'NONE',  ( 1.000000000000000000, 0.000000000000000000, 0.000000000000000000 ) ) ;
#332 = DATE_AND_TIME ( #207, #261 ) ;
#333 = CARTESIAN_POINT ( 'NONE',  ( -1.500000000000000444, 7.776507174585692163E-16, -6.349999999999999645 ) ) ;
#334 = CALENDAR_DATE ( 2020, 24, 12 ) ;
#335 = DIRECTION ( 'NONE',  ( -1.000000000000000000, -0.000000000000000000, -0.000000000000000000 ) ) ;
ENDSEC;
END-ISO-10303-21;
